FRUITS BASKET on guitar
As recorded by usaguitarist

Transcribed by usaguitarist

Words and Music by Ritsuko Okazaki
Guitar arranged by usaguitarist


Gtr (E A D G B E)

  Cmaj7    D         E
 4/4
  Gtr
|--7---7---5---5---|--------------||
|--8---8---7---7---|-9---9---9----||
|--9-9---9-7-7---7-|-9---9---9----||
|-10---------------|-9-9---9-9----||
|----------5-------|-7-------7----||
|------------------|--------------||


  G             C           D             B#dim       Em       A7/C#     D7sus4   D7 D/C
|-------------------------|-------------------------|------0-2-3-2---5-|-3--3-2-0-------|
|---0-0-0-1-3-3---1-1-0-1-|-------------------------|----0-----2---5---|-1--------3--7--|
|-------------------------|---2-2-2-4-5-7---5-4---4-|----------2-------|-2--------2--7--|
|-------------------------|-0-------------------7---|------------------|-0--------0--7--|
|---------------3---------|---------------6---------|----------0-------|-------------3--|
|-3-----------------------|-------------------------|-0----------------|----------------|


  G             C           D             B#dim       Em       A7/C#     D7sus4     D7
|-3-----------------------|-2-----------------------|------0-2-3-2---5-|-3--(3)-2-0-2---7-7-7-|
|-3---------3-3-----------|-3-----------------------|----0-----2---5---|-1----------3---------|
|-4-4-4-4-5-------5-5-4-5-|-2-2-2-2-4-5-7---5-4---4-|----------2-------|-2----------2---------|
|-------------------------|-0-------------------7---|------------------|-0----------0---------|
|---------------3---------|---------------6---------|----------0-------|----------------------|
|-3-----------------------|-------------------------|-0----------------|----------------------|


  Am7             D7                  Bm7            Em             F#m7b5     B#dim      Em            E7
|-7---------------------5-----------|----------------------3--3-3-|-3-2-2--0-0---8-7----|-----------------7-7-7-|
|-5-8-8-5-5-----0-----7----10-10-10-|-10-7-7----------------------|-5----------------10-|-10-8-8-7------9-------|
|-5---------5-5-----5---------------|--7-----7-----------4--------|-5----------8--------|--9-------9-9--7-------|
|-----------------7-----------------|--9-------7-7-7-7-5----------|---------------------|------------9--9-------|
|-0---------------5-----------------|-----------------------------|-0-------------------|--7---------7--7-------|
|-----------------------------------|--7-------------0------------|------------7--------|-----------------------|


  D7sus4/A        D7                  Bm7        Em              D7sus4/A  D7sus4    G
|-7---------------------5-----------|--------------------------|---10-8----5-------|-3---3---3---3---|
|-5-8-8-5-5-----0-----7----10-10-10-|-10-7-7-----10-8-7-8-(8)--|----8---12---8-8-7-|-3---3---3---3---|
|-5---------5-5-----5---------------|--------7----9------------|----9------7-------|-4-4---4---4-----|
|-----------------7-----------------|--9-------9---------------|---------------7---|-----------------|
|-0---------------5-----------------|-------------7------------|-----------5---5---|-----------------|
|-----------------------------------|--7-----------------------|-8-----------------|-3-------------3-|


  A#       D#          F          D#dim         Gm       C/E       Fsus4       F   F7
|--------------------|------------------------|------3-5-6-5---8-|---------------------|
|--------6-6---------|------------------------|----3-----5---8---|-11--11-10-8-----10--|
|----7-8---8-8-8-7-8-|-10-----7-8-10-8-7----7-|-3--------5-------|-10----------10---8--|
|----------8---------|-10--10------7-----10---|-5--------5-------|-10----------10--10--|
|----------6---------|--8----------9----------|-5----------------|--8-----------8---8--|
|-6------------------|------------------------|-3----------------|---------------------|


  A#       D#          F          D#dim          Gm       C/E       Fsus4        F 
|-6------------------|-------------------------|------3-5-6-5---8-|-------------------------|
|-6------6-6---------|-------------------------|----3-----5---8---|-11----11----10----10----|
|-7--7-8---8-8-8-7-8-|-10-----7-8-10-8-7----7--|-3--------5-------|-10----10----10----10----|
|----------8---------|-10--10------7-----10----|-5--------5-------|-10-10----10-10-10----10-|
|----------6---------|--8----------9-----------|-5----------------|--8-----------8----------|
|-6------------------|-------------------------|-3----------------|-------------------------|


    G
|---3------|-(3)----*|
|---3------|-(3)----*|
|---4------|-(4)----*|
|----------|--------*|
|----------|--------*|
|---3------|-(3)----*|


** Generated using Power Tab Editor by Brad Larsen: The Official Power Tab Web Site