Fate Zero ED "Sora wa takaku Kaze wa utau" on guitar
As recorded by usaguitarist

Transcribed by usaguitarist

Words and Music by Yuki Kajiura
Solo Guitar Arranged by usaguitarist


Gtr (Eb Ab Db Gb Bb Eb)

  4/4

|-----------0-------0-|-3-2-0---0-2-----|-----------0-------0-|-3-2-5---0-2-----|
|-3-----2-3-----2-----|-------3-----3-2-|-3-----2-3-----2-----|-----5-3-----3-2-|
|-----4-------2---2---|---2---2---2---3-|-----4-------2---2---|---2---2---2---3-|
|---4-----------------|-0---4-------4---|---4-----------------|-0---4-------4---|
|-2-----2---4-----4---|---------4-------|-2-----2---4-----4---|---------4-------|
|---------------------|-----------------|---------------------|-----------------|


|-----------2-----2-|-3---2-0-----0-2-|-0-----0-3-2-0-----|---------2------|
|-3-----2p0-----3---|-5---2---3-----3-|-----0---0-----2-3-|-3---2---0h2-2--|
|-----4-----2-2-----|---2---------4---|---0---0-----------|-------4-3------|
|---5---5---0-----0-|-------4---4-----|-------------------|---4------------|
|-------------------|-0---1---2---0---|-------------------|----------------|
|-3-----------------|-----------------|-3-------0---3-----|-2-------2------|


|-------------------6-|-7--------------2-|-------------------|-----------------|
|-4-----4---7-----9---|------7---7---0-4-|-7-----5p4-4-----4-|-5---4-------2-4-|
|-4---4---4-6---6---6-|-9-8------6-8-0---|-----4-----4---4---|-6---3-6-4---3---|
|---6---8-----8---9---|-----11-9---------|---6---------4-----|---4-----------4-|
|---------------------|------------------|-----------2-------|-----------6-----|
|-4---------6---------|-7--------6---3---|-0-----------------|-6---3-6-4---2---|


|-----------------|------------------|
|-2-----2-2-----0-|-9---9-----8------|
|-----1---1---3-6-|-----------8------|
|---2---2---3-----|-9-8-8--6--6-8-8--|
|-----------------|-6---------6------|
|-0-------1-------|------------------|


|-7------9------|-7--------------|
|---4-4----7-7--|----------------|
|-4------6------|-9--8----8--8-6-|
|---------------|------11--------|
|---------------|----------------|
|-4------6------|-7----------7-5-|


|----------5-5--|-3--2---2-------------|-(2)-------------|
|-3-7-7--5------|------5-----2-3-5-3-2-|-------5-5-4-5-7-|
|---------------|-3------3-4-----------|-----------------|
|---------------|----------------------|--4--------------|
|---------------|----------------------|-----------------|
|-3------0------|-2------2-------------|--2--------------|


|-------------0-2-|------------------|-----------4-----|-----------------|
|-5-----5-5-4---0-|-9-----9-9-7-10-9-|-7-----7-7---5-4-|-5-----5-5-4-2-4-|
|-----6-----------|-----9---9-8-11-9-|-----6-----5---5-|-----6-------4---|
|---6---6---6-1---|---9---9----------|---7---7-----6---|---6---6---4---4-|
|-4-------4---2---|-7----------------|-6---------------|-4-------2-------|
|-----------------|-0----------------|---------4-------|-----------------|


|---------7-5-4---|---------5-4-----|---------------|--------------------|
|-5-----5-5-----7-|-5-----5-----7-5-|-7---------4-5-|-5---4---9----------|
|-----6-------6---|-----4-------6---|-6---6-6-------|--------------11----|
|---7---7---7---7-|---6---6---6---6-|-----7-7-------|---6---6---10----10-|
|-0---------------|---------4-------|-6-------0-----|--------------------|
|-----------------|-4---------------|---------------|-4-------8----------|


|-------------0-2-|------------------|-----------4-----|---------7----------|
|-5-----5-5-4---0-|-9-----9-9-7-10-9-|-7-----7-7---5-4-|-5-----5---10-9--7--|
|-----6-----------|-----9---9-8-11-9-|-----6-----5---5-|-----6--------8-(8)-|
|---6---6---6-1---|---9---9----------|---7---7-----6---|---6---6------------|
|-4-------4---2---|-7----------------|-6---------------|-4------------------|
|-----------------|-0----------------|---------4-------|---------7----------|


|---------5-4---5-|-5-----4-4-------|-----0-0---------|-4----*|
|-5-----5-5---7---|---------------5-|-7-------4---5-7-|-4----*|
|-----6-------6---|-----4-------6---|-----6-------5---|------*|
|---7---7---7---7-|---6---6---6---6-|---7---7---6---6-|------*|
|-0---------------|---------4-------|-6---------------|-4----*|
|-----------------|-4---------------|---------4-------|------*|


** Generated using Power Tab Editor by Brad Larsen: The Official Power Tab Web Site